  0
SECTION
  2
HEADER
  9
$ACADVER
  1
AC1015
  9
$ACADMAINTVER
 70
     6
  9
$DWGCODEPAGE
  3
ANSI_1252
  9
$INSBASE
 10
0.0
 20
0.0
 30
0.0
  9
$EXTMIN
 10
9.319823518719204
 20
-13.79456891592163
 30
-0.0000000100019834
  9
$EXTMAX
 10
80.49390076454997
 20
22.67448938363578
 30
0.0000000100019837
  9
$LIMMIN
 10
0.0
 20
0.0
  9
$LIMMAX
 10
0.0
 20
0.0
  9
$ORTHOMODE
 70
     0
  9
$REGENMODE
 70
     1
  9
$FILLMODE
 70
     1
  9
$QTEXTMODE
 70
     0
  9
$MIRRTEXT
 70
     1
  9
$LTSCALE
 40
1.0
  9
$ATTMODE
 70
     1
  9
$TEXTSIZE
 40
0.2
  9
$TRACEWID
 40
0.05
  9
$TEXTSTYLE
  7
Standard
  9
$CLAYER
  8
0
  9
$CELTYPE
  6
ByLayer
  9
$CECOLOR
 62
   256
  9
$CELTSCALE
 40
1.0
  9
$DISPSILH
 70
     0
  9
$DIMSCALE
 40
1.0
  9
$DIMASZ
 40
0.09
  9
$DIMEXO
 40
0.05
  9
$DIMDLI
 40
0.38
  9
$DIMRND
 40
0.0
  9
$DIMDLE
 40
0.0
  9
$DIMEXE
 40
0.0625
  9
$DIMTP
 40
0.0
  9
$DIMTM
 40
0.0
  9
$DIMTXT
 40
0.1666666666666666
  9
$DIMCEN
 40
0.09
  9
$DIMTSZ
 40
0.0
  9
$DIMTOL
 70
     0
  9
$DIMLIM
 70
     0
  9
$DIMTIH
 70
     1
  9
$DIMTOH
 70
     1
  9
$DIMSE1
 70
     0
  9
$DIMSE2
 70
     0
  9
$DIMTAD
 70
     0
  9
$DIMZIN
 70
     0
  9
$DIMBLK
  1

  9
$DIMASO
 70
     1
  9
$DIMSHO
 70
     1
  9
$DIMPOST
  1

  9
$DIMAPOST
  1

  9
$DIMALT
 70
     0
  9
$DIMALTD
 70
     2
  9
$DIMALTF
 40
25.4
  9
$DIMLFAC
 40
1.0
  9
$DIMTOFL
 70
     0
  9
$DIMTVP
 40
0.0
  9
$DIMTIX
 70
     0
  9
$DIMSOXD
 70
     0
  9
$DIMSAH
 70
     0
  9
$DIMBLK1
  1

  9
$DIMBLK2
  1

  9
$DIMSTYLE
  2
Standard
  9
$DIMCLRD
 70
     0
  9
$DIMCLRE
 70
     0
  9
$DIMCLRT
 70
     0
  9
$DIMTFAC
 40
1.0
  9
$DIMGAP
 40
0.06
  9
$DIMJUST
 70
     0
  9
$DIMSD1
 70
     0
  9
$DIMSD2
 70
     0
  9
$DIMTOLJ
 70
     1
  9
$DIMTZIN
 70
     0
  9
$DIMALTZ
 70
     0
  9
$DIMALTTZ
 70
     0
  9
$DIMUPT
 70
     0
  9
$DIMDEC
 70
     4
  9
$DIMTDEC
 70
     4
  9
$DIMALTU
 70
     2
  9
$DIMALTTD
 70
     2
  9
$DIMTXSTY
  7
Standard
  9
$DIMAUNIT
 70
     0
  9
$DIMADEC
 70
     0
  9
$DIMALTRND
 40
0.0
  9
$DIMAZIN
 70
     0
  9
$DIMDSEP
 70
    46
  9
$DIMATFIT
 70
     3
  9
$DIMFRAC
 70
     0
  9
$DIMLDRBLK
  1

  9
$DIMLUNIT
 70
     2
  9
$DIMLWD
 70
    -2
  9
$DIMLWE
 70
    -2
  9
$DIMTMOVE
 70
     0
  9
$LUNITS
 70
     2
  9
$LUPREC
 70
     3
  9
$SKETCHINC
 40
0.1
  9
$FILLETRAD
 40
0.5
  9
$AUNITS
 70
     0
  9
$AUPREC
 70
     0
  9
$MENU
  1
.
  9
$ELEVATION
 40
0.0
  9
$PELEVATION
 40
0.0
  9
$THICKNESS
 40
0.0
  9
$LIMCHECK
 70
     0
  9
$CHAMFERA
 40
0.5
  9
$CHAMFERB
 40
0.5
  9
$CHAMFERC
 40
1.0
  9
$CHAMFERD
 40
0.0
  9
$SKPOLY
 70
     0
  9
$TDCREATE
 40
2454594.403207905
  9
$TDUCREATE
 40
2454594.611541238
  9
$TDUPDATE
 40
2454719.659077743
  9
$TDUUPDATE
 40
2454719.867411076
  9
$TDINDWG
 40
0.0126061806
  9
$TDUSRTIMER
 40
0.0126061806
  9
$USRTIMER
 70
     1
  9
$ANGBASE
 50
0.0
  9
$ANGDIR
 70
     0
  9
$PDMODE
 70
     0
  9
$PDSIZE
 40
-1.0
  9
$PLINEWID
 40
0.0
  9
$SPLFRAME
 70
     0
  9
$SPLINETYPE
 70
     6
  9
$SPLINESEGS
 70
     8
  9
$HANDSEED
  5
121
  9
$SURFTAB1
 70
     6
  9
$SURFTAB2
 70
     6
  9
$SURFTYPE
 70
     6
  9
$SURFU
 70
     6
  9
$SURFV
 70
     6
  9
$UCSBASE
  2

  9
$UCSNAME
  2

  9
$UCSORG
 10
0.0
 20
0.0
 30
0.0
  9
$UCSXDIR
 10
1.0
 20
0.0
 30
0.0
  9
$UCSYDIR
 10
0.0
 20
1.0
 30
0.0
  9
$UCSORTHOREF
  2

  9
$UCSORTHOVIEW
 70
     0
  9
$UCSORGTOP
 10
0.0
 20
0.0
 30
0.0
  9
$UCSORGBOTTOM
 10
0.0
 20
0.0
 30
0.0
  9
$UCSORGLEFT
 10
0.0
 20
0.0
 30
0.0
  9
$UCSORGRIGHT
 10
0.0
 20
0.0
 30
0.0
  9
$UCSORGFRONT
 10
0.0
 20
0.0
 30
0.0
  9
$UCSORGBACK
 10
0.0
 20
0.0
 30
0.0
  9
$PUCSBASE
  2

  9
$PUCSNAME
  2

  9
$PUCSORG
 10
0.0
 20
0.0
 30
0.0
  9
$PUCSXDIR
 10
1.0
 20
0.0
 30
0.0
  9
$PUCSYDIR
 10
0.0
 20
1.0
 30
0.0
  9
$PUCSORTHOREF
  2

  9
$PUCSORTHOVIEW
 70
     0
  9
$PUCSORGTOP
 10
0.0
 20
0.0
 30
0.0
  9
$PUCSORGBOTTOM
 10
0.0
 20
0.0
 30
0.0
  9
$PUCSORGLEFT
 10
0.0
 20
0.0
 30
0.0
  9
$PUCSORGRIGHT
 10
0.0
 20
0.0
 30
0.0
  9
$PUCSORGFRONT
 10
0.0
 20
0.0
 30
0.0
  9
$PUCSORGBACK
 10
0.0
 20
0.0
 30
0.0
  9
$USERI1
 70
     0
  9
$USERI2
 70
     0
  9
$USERI3
 70
     0
  9
$USERI4
 70
     0
  9
$USERI5
 70
     0
  9
$USERR1
 40
0.0
  9
$USERR2
 40
0.0
  9
$USERR3
 40
0.0
  9
$USERR4
 40
0.0
  9
$USERR5
 40
0.0
  9
$WORLDVIEW
 70
     1
  9
$SHADEDGE
 70
     3
  9
$SHADEDIF
 70
    70
  9
$TILEMODE
 70
     1
  9
$MAXACTVP
 70
    64
  9
$PINSBASE
 10
0.0
 20
0.0
 30
0.0
  9
$PLIMCHECK
 70
     0
  9
$PEXTMIN
 10
1.000000000000000E+20
 20
1.000000000000000E+20
 30
1.000000000000000E+20
  9
$PEXTMAX
 10
-1.000000000000000E+20
 20
-1.000000000000000E+20
 30
-1.000000000000000E+20
  9
$PLIMMIN
 10
0.0
 20
0.0
  9
$PLIMMAX
 10
12.0
 20
9.0
  9
$UNITMODE
 70
     0
  9
$VISRETAIN
 70
     1
  9
$PLINEGEN
 70
     0
  9
$PSLTSCALE
 70
     1
  9
$TREEDEPTH
 70
  3020
  9
$CMLSTYLE
  2
Standard
  9
$CMLJUST
 70
     0
  9
$CMLSCALE
 40
1.0
  9
$PROXYGRAPHICS
 70
     1
  9
$MEASUREMENT
 70
     0
  9
$CELWEIGHT
370
    -1
  9
$ENDCAPS
280
     0
  9
$JOINSTYLE
280
     0
  9
$LWDISPLAY
290
     1
  9
$INSUNITS
 70
     1
  9
$HYPERLINKBASE
  1

  9
$STYLESHEET
  1

  9
$XEDIT
290
     1
  9
$CEPSNTYPE
380
     0
  9
$PSTYLEMODE
290
     1
  9
$FINGERPRINTGUID
  2
{7A604497-C5A9-4554-84C6-6D24F7A2FE07}
  9
$VERSIONGUID
  2
{0E556238-E3F0-419F-B65B-5CAC1CBB2924}
  9
$EXTNAMES
290
     1
  9
$PSVPSCALE
 40
0.0
  9
$OLESTARTUP
290
     0
  0
ENDSEC
  0
SECTION
  2
CLASSES
  0
CLASS
  1
ACDBDICTIONARYWDFLT
  2
AcDbDictionaryWithDefault
  3
AutoCAD 2000
 90
        0
280
     0
281
     0
  0
CLASS
  1
ACDBPLACEHOLDER
  2
AcDbPlaceHolder
  3
AutoCAD 2000
 90
        0
280
     0
281
     0
  0
CLASS
  1
LAYOUT
  2
AcDbLayout
  3
AutoCAD 2000
 90
        0
280
     0
281
     0
  0
ENDSEC
  0
SECTION
  2
TABLES
  0
TABLE
  2
VPORT
  5
8
330
0
100
AcDbSymbolTable
 70
     3
  0
VPORT
  5
120
330
8
100
AcDbSymbolTableRecord
100
AcDbViewportTableRecord
  2
*Active
 70
     0
 10
0.0
 20
0.0
 11
1.0
 21
1.0
 12
44.90686214163459
 22
4.439960233857076
 13
0.0
 23
0.0
 14
0.5
 24
0.5
 15
0.5
 25
0.5
 16
0.0
 26
0.0
 36
1.0
 17
0.0
 27
0.0
 37
0.0
 40
40.34499787422503
 41
1.775280898876404
 42
50.0
 43
0.0
 44
0.0
 50
0.0
 51
0.0
 71
     0
 72
  2000
 73
     1
 74
     3
 75
     0
 76
     0
 77
     0
 78
     0
281
     0
 65
     1
110
0.0
120
0.0
130
0.0
111
1.0
121
0.0
131
0.0
112
0.0
122
1.0
132
0.0
 79
     0
146
0.0
  0
ENDTAB
  0
TABLE
  2
LTYPE
  5
5
330
0
100
AcDbSymbolTable
 70
     6
  0
LTYPE
  5
14
330
5
100
AcDbSymbolTableRecord
100
AcDbLinetypeTableRecord
  2
ByBlock
 70
     0
  3

 72
    65
 73
     0
 40
0.0
  0
LTYPE
  5
15
330
5
100
AcDbSymbolTableRecord
100
AcDbLinetypeTableRecord
  2
ByLayer
 70
     0
  3

 72
    65
 73
     0
 40
0.0
  0
LTYPE
  5
16
330
5
100
AcDbSymbolTableRecord
100
AcDbLinetypeTableRecord
  2
Continuous
 70
     0
  3
Solid line
 72
    65
 73
     0
 40
0.0
  0
LTYPE
  5
2A
330
5
100
AcDbSymbolTableRecord
100
AcDbLinetypeTableRecord
  2
HIDDEN
 70
     0
  3
Hidden __ __ __ __ __ __ __ __ __ __ __ __ __ __
 72
    65
 73
     2
 40
0.075
 49
0.05
 74
     0
 49
-0.025
 74
     0
  0
LTYPE
  5
2B
330
5
100
AcDbSymbolTableRecord
100
AcDbLinetypeTableRecord
  2
PHANTOM
 70
     0
  3
Phantom ______  __  __  ______  __  __  ______
 72
    65
 73
     6
 40
0.5
 49
0.25
 74
     0
 49
-0.05
 74
     0
 49
0.05
 74
     0
 49
-0.05
 74
     0
 49
0.05
 74
     0
 49
-0.05
 74
     0
  0
LTYPE
  5
2C
330
5
100
AcDbSymbolTableRecord
100
AcDbLinetypeTableRecord
  2
CENTER
 70
     0
  3
Center ____ _ ____ _ ____ _ ____ _ ____ _ ____
 72
    65
 73
     4
 40
0.4
 49
0.25
 74
     0
 49
-0.05
 74
     0
 49
0.05
 74
     0
 49
-0.05
 74
     0
  0
LTYPE
  5
2D
330
5
100
AcDbSymbolTableRecord
100
AcDbLinetypeTableRecord
  2
CENTERX2
 70
     0
  3
Center (2x) ________  __  ________  __  _____
 72
    65
 73
     4
 40
0.8
 49
0.5
 74
     0
 49
-0.1
 74
     0
 49
0.1
 74
     0
 49
-0.1
 74
     0
  0
LTYPE
  5
2E
330
5
100
AcDbSymbolTableRecord
100
AcDbLinetypeTableRecord
  2
DOT2
 70
     0
  3
Dot (.5x) ........................................
 72
    65
 73
     2
 40
0.025
 49
0.0
 74
     0
 49
-0.025
 74
     0
  0
ENDTAB
  0
TABLE
  2
LAYER
  5
2
330
0
100
AcDbSymbolTable
 70
     3
  0
LAYER
  5
10
330
2
100
AcDbSymbolTableRecord
100
AcDbLayerTableRecord
  2
0
 70
     0
 62
     7
  6
Continuous
370
    -3
390
F
  0
LAYER
  5
2F
330
2
100
AcDbSymbolTableRecord
100
AcDbLayerTableRecord
  2
SLD-0
 70
     0
 62
    -7
  6
Continuous
370
    -3
390
F
  0
LAYER
  5
30
330
2
100
AcDbSymbolTableRecord
100
AcDbLayerTableRecord
  2
FORMAT
 70
     0
 62
     7
  6
Continuous
370
    -3
390
F
  0
ENDTAB
  0
TABLE
  2
STYLE
  5
3
330
0
100
AcDbSymbolTable
 70
     3
  0
STYLE
  5
11
330
3
100
AcDbSymbolTableRecord
100
AcDbTextStyleTableRecord
  2
Standard
 70
     0
 40
0.0
 41
1.0
 50
0.0
 71
     0
 42
0.2
  3
txt
  4

  0
STYLE
  5
FA
330
3
100
AcDbSymbolTableRecord
100
AcDbTextStyleTableRecord
  2
SLDTEXTSTYLE0
 70
     0
 40
0.0
 41
0.605
 50
0.0
 71
     0
 42
0.2
  3
TXT
  4

  0
STYLE
  5
FC
330
3
100
AcDbSymbolTableRecord
100
AcDbTextStyleTableRecord
  2
SLDTEXTSTYLE1
 70
     0
 40
0.0
 41
0.529375
 50
0.0
 71
     0
 42
0.2
  3
TXT
  4

  0
ENDTAB
  0
TABLE
  2
VIEW
  5
6
330
0
100
AcDbSymbolTable
 70
     0
  0
ENDTAB
  0
TABLE
  2
UCS
  5
7
330
0
100
AcDbSymbolTable
 70
     0
  0
ENDTAB
  0
TABLE
  2
APPID
  5
9
330
0
100
AcDbSymbolTable
 70
     1
  0
APPID
  5
12
330
9
100
AcDbSymbolTableRecord
100
AcDbRegAppTableRecord
  2
ACAD
 70
     0
  0
ENDTAB
  0
TABLE
  2
DIMSTYLE
  5
A
330
0
100
AcDbSymbolTable
 70
     1
100
AcDbDimStyleTable
 71
     0
  0
DIMSTYLE
105
27
330
A
100
AcDbSymbolTableRecord
100
AcDbDimStyleTableRecord
  2
Standard
 70
     0
340
11
  0
ENDTAB
  0
TABLE
  2
BLOCK_RECORD
  5
1
330
0
100
AcDbSymbolTable
 70
     3
  0
BLOCK_RECORD
  5
1F
330
1
100
AcDbSymbolTableRecord
100
AcDbBlockTableRecord
  2
*Model_Space
340
22
  0
BLOCK_RECORD
  5
1B
330
1
100
AcDbSymbolTableRecord
100
AcDbBlockTableRecord
  2
*Paper_Space
340
1E
  0
BLOCK_RECORD
  5
23
330
1
100
AcDbSymbolTableRecord
100
AcDbBlockTableRecord
  2
*Paper_Space0
340
26
  0
BLOCK_RECORD
  5
F7
330
1
100
AcDbSymbolTableRecord
100
AcDbBlockTableRecord
  2
SW_NOTE_0
340
0
102
{BLKREFS
331
100
102
}
1001
ACAD
1000
DesignCenter Data
1002
{
1070
     1
1070
     0
1002
}
  0
ENDTAB
  0
ENDSEC
  0
SECTION
  2
BLOCKS
  0
BLOCK
  5
20
330
1F
100
AcDbEntity
  8
0
100
AcDbBlockBegin
  2
*Model_Space
 70
     0
 10
0.0
 20
0.0
 30
0.0
  3
*Model_Space
  1

  0
ENDBLK
  5
21
330
1F
100
AcDbEntity
  8
0
100
AcDbBlockEnd
  0
BLOCK
  5
1C
330
1B
100
AcDbEntity
 67
     1
  8
0
100
AcDbBlockBegin
  2
*Paper_Space
 70
     0
 10
0.0
 20
0.0
 30
0.0
  3
*Paper_Space
  1

  0
ENDBLK
  5
1D
330
1B
100
AcDbEntity
 67
     1
  8
0
100
AcDbBlockEnd
  0
BLOCK
  5
24
330
23
100
AcDbEntity
  8
0
100
AcDbBlockBegin
  2
*Paper_Space0
 70
     0
 10
0.0
 20
0.0
 30
0.0
  3
*Paper_Space0
  1

  0
ENDBLK
  5
25
330
23
100
AcDbEntity
  8
0
100
AcDbBlockEnd
  0
BLOCK
  5
F8
330
F7
100
AcDbEntity
  8
0
100
AcDbBlockBegin
  2
SW_NOTE_0
 70
     0
 10
0.0
 20
0.0
 30
0.0
  3
SW_NOTE_0
  1

  0
MTEXT
  5
FB
330
F7
100
AcDbEntity
  8
FORMAT
 62
     0
100
AcDbMText
 10
0.0
 20
1.611334674714956
 30
0.0
 40
1.25
 41
0.0
 71
     1
 72
     1
  1
TITUS
  7
SLDTEXTSTYLE0
 73
     1
 44
1.0
  0
MTEXT
  5
FD
330
F7
100
AcDbEntity
  8
FORMAT
 62
     0
100
AcDbMText
 10
-1.944444310946727
 20
-0.0553320451422067
 30
0.0
 40
1.25
 41
0.0
 71
     1
 72
     1
  1
FLP SIZE 2
  7
SLDTEXTSTYLE1
 73
     1
 44
1.0
  0
MTEXT
  5
FE
330
F7
100
AcDbEntity
  8
FORMAT
 62
     0
100
AcDbMText
 10
-1.089120298389374
 20
-1.721998764999369
 30
0.0
 40
1.25
 41
0.0
 71
     1
 72
     1
  1
8" INLET
  7
SLDTEXTSTYLE0
 73
     1
 44
1.0
  0
MTEXT
  5
FF
330
F7
100
AcDbEntity
  8
FORMAT
 62
     0
100
AcDbMText
 10
-5.277778630650888
 20
-3.388665484856533
 30
0.0
 40
1.25
 41
0.0
 71
     1
 72
     1
  1
W/ELECTRIC HEAT
  7
SLDTEXTSTYLE0
 73
     1
 44
1.0
  0
ENDBLK
  5
F9
330
F7
100
AcDbEntity
  8
0
100
AcDbBlockEnd
  0
ENDSEC
  0
SECTION
  2
ENTITIES
  0
ARC
  5
31
330
1F
100
AcDbEntity
  8
0
  6
Continuous
 62
     7
370
    -3
100
AcDbCircle
 10
30.27601631375255
 20
14.1881561447237
 30
0.0
 40
0.1590000000000005
100
AcDbArc
 50
93.15437913827011
 51
180.0000000000051
  0
ARC
  5
32
330
1F
100
AcDbEntity
  8
0
  6
Continuous
 62
     7
370
    -3
100
AcDbCircle
 10
30.27601631375252
 20
6.313156144723633
 30
0.0
 40
0.1590000000000025
100
AcDbArc
 50
179.9999999999931
 51
266.8456208617281
  0
LINE
  5
33
330
1F
100
AcDbEntity
  8
0
  6
Continuous
 62
     7
370
    -3
100
AcDbLine
 10
26.99476679262629
 20
14.18815598539249
 30
0.0
 11
29.28594821803628
 21
14.18815598539248
 31
0.0
  0
LINE
  5
34
330
1F
100
AcDbEntity
  8
0
  6
Continuous
 62
     7
370
    -3
100
AcDbLine
 10
29.95358359878872
 20
14.18815598539247
 30
0.0
 11
30.11701531081164
 21
14.18815598539247
 31
0.0
  0
LINE
  5
35
330
1F
100
AcDbEntity
  8
0
  6
Continuous
 62
     7
370
    -3
100
AcDbLine
 10
30.11701531081161
 20
6.313156291394273
 30
0.0
 11
26.99476679262625
 21
6.313156291394288
 31
0.0
  0
LINE
  5
3A
330
1F
100
AcDbEntity
  8
0
  6
Continuous
 62
     7
370
    -3
100
AcDbLine
 10
63.26726723627259
 20
16.42226244347052
 30
0.0
 11
32.26726695092122
 21
16.42226244347066
 31
0.0
  0
LINE
  5
3B
330
1F
100
AcDbEntity
  8
0
  6
Continuous
 62
     7
370
    -3
100
AcDbLine
 10
63.26726723627261
 20
22.67226352292472
 30
0.0
 11
63.26726723627259
 21
16.42226244347052
 31
0.0
  0
LINE
  5
3C
330
1F
100
AcDbEntity
  8
0
  6
Continuous
 62
     7
370
    -3
100
AcDbLine
 10
32.26726695092125
 20
22.67226352292486
 30
0.0
 11
63.26726723627261
 21
22.67226352292472
 31
0.0
  0
LINE
  5
3D
330
1F
100
AcDbEntity
  8
0
  6
Continuous
 62
     7
370
    -3
100
AcDbLine
 10
32.26726695092122
 20
16.42226244347066
 30
0.0
 11
32.26726695092125
 21
22.67226352292486
 31
0.0
  0
LINE
  5
3E
330
1F
100
AcDbEntity
  8
0
  6
Continuous
 62
     7
370
    -3
100
AcDbLine
 10
80.39226599349223
 20
4.457656952947392
 30
0.0
 11
80.39226599349223
 21
4.707657078257945
 31
0.0
  0
LINE
  5
3F
330
1F
100
AcDbEntity
  8
0
  6
Continuous
 62
     7
370
    -3
100
AcDbLine
 10
80.39226599349223
 20
4.457656952947392
 30
0.0
 11
80.49226803826007
 21
4.457656952947392
 31
0.0
  0
LINE
  5
40
330
1F
100
AcDbEntity
  8
0
  6
Continuous
 62
     7
370
    -3
100
AcDbLine
 10
80.49226803826007
 20
4.457656952947392
 30
0.0
 11
80.49226803826012
 21
15.29098740538956
 31
0.0
  0
LINE
  5
41
330
1F
100
AcDbEntity
  8
0
  6
Continuous
 62
     7
370
    -3
100
AcDbLine
 10
80.39226599349227
 20
15.29098740538956
 30
0.0
 11
80.49226803826012
 21
15.29098740538956
 31
0.0
  0
LINE
  5
42
330
1F
100
AcDbEntity
  8
0
  6
Continuous
 62
     7
370
    -3
100
AcDbLine
 10
80.39226599349227
 20
15.04098698674906
 30
0.0
 11
80.39226599349227
 21
15.29098740538956
 31
0.0
  0
LINE
  5
43
330
1F
100
AcDbEntity
  8
0
  6
Continuous
 62
     7
370
    -3
100
AcDbLine
 10
70.64226726630957
 20
15.0409869867491
 30
0.0
 11
80.39226599349227
 21
15.04098698674906
 31
0.0
  0
LINE
  5
44
330
1F
100
AcDbEntity
  8
0
  6
Continuous
 62
     7
370
    -3
100
AcDbLine
 10
70.64226726630953
 20
4.707657078257987
 30
0.0
 11
70.64226726630957
 21
15.0409869867491
 31
0.0
  0
LINE
  5
45
330
1F
100
AcDbEntity
  8
0
  6
Continuous
 62
     7
370
    -3
100
AcDbLine
 10
70.64226726630953
 20
4.707657078257987
 30
0.0
 11
80.39226599349223
 21
4.707657078257945
 31
0.0
  0
LINE
  5
46
330
1F
100
AcDbEntity
  8
0
  6
Continuous
 62
     7
370
    -3
100
AcDbLine
 10
80.04521442932817
 20
0.7076569432675055
 30
0.0
 11
71.22311922292481
 21
0.7076569432675444
 31
0.0
  0
LINE
  5
47
330
1F
100
AcDbEntity
  8
0
  6
Continuous
 62
     7
370
    -3
100
AcDbLine
 10
80.04521442932817
 20
4.707657078257946
 30
0.0
 11
80.04521442932817
 21
0.7076569432675055
 31
0.0
  0
LINE
  5
48
330
1F
100
AcDbEntity
  8
0
  6
Continuous
 62
     7
370
    -3
100
AcDbLine
 10
71.22311922292481
 20
0.7076569432675444
 30
0.0
 11
71.22311922292482
 21
4.707657078257984
 31
0.0
  0
LINE
  5
51
330
1F
100
AcDbEntity
  8
0
  6
Continuous
 62
     7
370
    -3
100
AcDbLine
 10
30.11701531081161
 20
6.313156291394273
 30
0.0
 11
30.11701531081164
 21
14.18815598539247
 31
0.0
  0
SPLINE
  5
52
330
1F
100
AcDbEntity
  8
0
  6
Continuous
 62
     7
370
    -3
100
AcDbSpline
210
0.0
220
0.0
230
1.0
 70
     8
 71
     3
 72
    12
 73
     8
 74
     0
 42
0.0000000001
 43
0.0000000001
 40
0.0
 40
0.0
 40
0.0
 40
0.0
 40
0.2145211016871185
 40
0.4290285468687302
 40
0.6437483146177432
 40
0.8586043338108343
 40
1.0
 40
1.0
 40
1.0
 40
1.0
 10
29.61976708173228
 20
14.18510535396696
 30
0.0
 10
29.64433059765456
 20
14.18501326931884
 30
0.0
 10
29.69345606577514
 20
14.18482910588474
 30
0.0
 10
29.75908975236197
 20
14.18318278102837
 30
0.0
 10
29.80810773504101
 20
14.18000664303235
 30
0.0
 10
29.83594009620976
 20
14.17568027588295
 30
0.0
 10
29.83578849179001
 20
14.17179454043602
 30
0.0
 10
29.83572832026295
 20
14.17025229888406
 30
0.0
  0
SPLINE
  5
53
330
1F
100
AcDbEntity
  8
0
  6
Continuous
 62
     7
370
    -3
100
AcDbSpline
210
0.0
220
0.0
230
1.0
 70
     8
 71
     3
 72
    13
 73
     9
 74
     0
 42
0.0000000001
 43
0.0000000001
 40
0.0
 40
0.0
 40
0.0
 40
0.0
 40
0.0732334336843439
 40
0.2876288773696685
 40
0.502142153387236
 40
0.716946294989583
 40
0.9317533855395543
 40
1.0
 40
1.0
 40
1.0
 40
1.0
 10
29.40380349656205
 20
14.17028045855875
 30
0.0
 10
29.40304324011833
 20
14.17111427409986
 30
0.0
 10
29.40005728552877
 20
14.1743891366313
 30
0.0
 10
29.4203078063843
 20
14.17859160961395
 30
0.0
 10
29.46246104105441
 20
14.18238889652274
 30
0.0
 10
29.5239854138434
 20
14.18440928077025
 30
0.0
 10
29.57970430556834
 20
14.18505311183885
 30
0.0
 10
29.61198414306831
 20
14.18509520496288
 30
0.0
 10
29.61976708173228
 20
14.18510535396696
 30
0.0
  0
LINE
  5
54
330
1F
100
AcDbEntity
  8
0
  6
Continuous
 62
     7
370
    -3
100
AcDbLine
 10
26.99476679262629
 20
14.18815598539249
 30
0.0
 11
26.99476679262625
 21
6.313156291394288
 31
0.0
  0
LWPOLYLINE
  5
85
330
1F
100
AcDbEntity
  8
0
  6
Continuous
 62
     7
370
    -3
100
AcDbPolyline
 90
       10
 70
   128
 43
0.0
 10
29.61976708173228
 20
14.13188826206868
 10
29.69369326773067
 20
14.13255705434274
 10
29.7649466312724
 20
14.1345411380891
 10
29.83095525540181
 20
14.13776776748146
 10
29.8893279144092
 20
14.14211961054194
 10
29.93795967261098
 20
14.1474406157399
 10
29.97509055033858
 20
14.15353835863158
 10
29.99938061640433
 20
14.16019108177876
 10
30.00994988097396
 20
14.16716060126628
 10
30.01039104921087
 20
14.1689229275744
  0
ARC
  5
86
330
1F
100
AcDbEntity
  8
0
  6
Continuous
 62
     7
370
    -3
100
AcDbCircle
 10
29.69927337316233
 20
12.6990837216427
 30
0.0
 40
1.507764691178534
100
AcDbArc
 50
78.3578174286778
 51
92.05472086452301
  0
ARC
  5
87
330
1F
100
AcDbEntity
  8
0
  6
Continuous
 62
     7
370
    -3
100
AcDbCircle
 10
29.49335183620357
 20
13.09347390020746
 30
0.0
 40
1.112536891382629
100
AcDbArc
 50
87.71894582602238
 51
103.374042600336
  0
LWPOLYLINE
  5
88
330
1F
100
AcDbEntity
  8
0
  6
Continuous
 62
     7
370
    -3
100
AcDbPolyline
 90
       10
 70
   128
 43
0.0
 10
29.22914076761413
 20
14.1689229275744
 10
29.2295842824906
 20
14.16716060126628
 10
29.24015354706023
 20
14.16019108177876
 10
29.26444126648642
 20
14.15353835863158
 10
29.30157214421402
 20
14.1474406157399
 10
29.3502039024158
 20
14.14211961054194
 10
29.40857890806275
 20
14.13776776748146
 10
29.4745851855526
 20
14.1345411380891
 10
29.54584089573389
 20
14.13255705434274
 10
29.61976708173228
 20
14.13188826206868
  0
ARC
  5
89
330
1F
100
AcDbEntity
  8
0
  6
Continuous
 62
     7
370
    -3
100
AcDbCircle
 10
29.64394164135857
 20
17.02450161938563
 30
0.0
 40
2.900678590384179
100
AcDbArc
 50
269.5224854358251
 51
275.0398350031354
  0
ARC
  5
8A
330
1F
100
AcDbEntity
  8
0
  6
Continuous
 62
     7
370
    -3
100
AcDbCircle
 10
29.59923057066166
 20
17.11588457753967
 30
0.0
 40
2.992031289550214
100
AcDbArc
 50
265.0444517363248
 51
270.3932661578269
  0
LWPOLYLINE
  5
8B
330
1F
100
AcDbEntity
  8
0
  6
Continuous
 62
     7
370
    -3
100
AcDbPolyline
 90
       29
 70
   128
 43
0.0
 10
29.61976708173228
 20
14.20511984275788
 10
29.5570155933095
 20
14.20444987716405
 10
29.49741094853411
 20
14.20247166001658
 10
29.44394276620311
 20
14.19928727013626
 10
29.39929090869185
 20
14.19505275905369
 10
29.36569407013872
 20
14.18998401760823
 10
29.34483713774645
 20
14.18433330955235
 10
29.33776671275794
 20
14.17838340495283
 10
29.34483713774645
 20
14.17243467367308
 10
29.36569407013872
 20
14.16678279229742
 10
29.39929090869185
 20
14.16171405085195
 10
29.44394276620311
 20
14.15748071308917
 10
29.49741094853411
 20
14.15429514988907
 10
29.5570155933095
 20
14.15231810606138
 10
29.61976708173228
 20
14.15164696714777
 10
29.68251622351551
 20
14.15231810606138
 10
29.7421208682909
 20
14.15429514988907
 10
29.79559139726145
 20
14.15748071308917
 10
29.84024325477271
 20
14.16171405085195
 10
29.87384009332584
 20
14.16678279229742
 10
29.89469702571811
 20
14.17243467367307
 10
29.90176745070662
 20
14.17838340495282
 10
29.89469702571811
 20
14.18433330955235
 10
29.87384009332584
 20
14.18998401760822
 10
29.84024325477271
 20
14.19505275905369
 10
29.79559139726145
 20
14.19928727013626
 10
29.7421208682909
 20
14.20247166001658
 10
29.68251622351551
 20
14.20444987716404
 10
29.61976708173228
 20
14.20511984275788
  0
LWPOLYLINE
  5
8C
330
1F
100
AcDbEntity
  8
0
  6
Continuous
 62
     7
370
    -3
100
AcDbPolyline
 90
       25
 70
   128
 43
0.0
 10
29.61976708173228
 20
14.19914647176277
 10
29.6764478136183
 20
14.19843895993601
 10
29.7292659767917
 20
14.19636453056666
 10
29.77462182617039
 20
14.19306515534799
 10
29.80942483745637
 20
14.1887649383578
 10
29.83130490469596
 20
14.18375720954084
 10
29.83876721849068
 20
14.17838340495282
 10
29.83130490469596
 20
14.1730096003648
 10
29.80942483745637
 20
14.16800187154785
 10
29.77462182617039
 20
14.16370165455766
 10
29.7292659767917
 20
14.16040227933899
 10
29.6764478136183
 20
14.15832784996964
 10
29.61976708173228
 20
14.15762033814288
 10
29.56308400320671
 20
14.15832784996964
 10
29.5102658400333
 20
14.16040227933899
 10
29.46490999065461
 20
14.16370165455766
 10
29.43010697936863
 20
14.16800187154785
 10
29.4082292587686
 20
14.17300960036481
 10
29.40076694497388
 20
14.17838340495283
 10
29.4082292587686
 20
14.18375720954084
 10
29.43010697936863
 20
14.1887649383578
 10
29.46490999065461
 20
14.19306515534799
 10
29.5102658400333
 20
14.19636453056666
 10
29.56308400320671
 20
14.19843895993601
 10
29.61976708173228
 20
14.19914647176277
  0
LWPOLYLINE
  5
8D
330
1F
100
AcDbEntity
  8
0
  6
Continuous
 62
     7
370
    -3
100
AcDbPolyline
 90
        3
 70
   128
 43
0.0
 10
29.61976708173228
 20
14.20595759308011
 10
29.69369326773067
 20
14.20528880080606
 10
29.72963205256276
 20
14.20446278368161
  0
LWPOLYLINE
  5
8E
330
1F
100
AcDbEntity
  8
0
  6
Continuous
 62
     7
370
    -3
100
AcDbPolyline
 90
        3
 70
   128
 43
0.0
 10
29.5099021109018
 20
14.20446278368162
 10
29.54584089573389
 20
14.20528880080606
 10
29.61976708173228
 20
14.20595759308011
  0
LINE
  5
8F
330
1F
100
AcDbEntity
  8
0
  6
Continuous
 62
     7
370
    -3
100
AcDbLine
 10
70.60826680575241
 20
3.550656124031741
 30
0.0
 11
70.60826680575246
 21
16.3878689207874
 31
0.0
  0
LINE
  5
90
330
1F
100
AcDbEntity
  8
0
  6
Continuous
 62
     7
370
    -3
100
AcDbLine
 10
70.60826680575246
 20
16.3878689207874
 30
0.0
 11
70.60787257030671
 21
16.3878689207874
 31
0.0
  0
LINE
  5
91
330
1F
100
AcDbEntity
  8
0
  6
Continuous
 62
     7
370
    -3
100
AcDbLine
 10
70.60787257030671
 20
16.38826198291338
 30
0.0
 11
70.60787257030671
 21
16.3878689207874
 31
0.0
  0
LINE
  5
92
330
1F
100
AcDbEntity
  8
0
  6
Continuous
 62
     7
370
    -3
100
AcDbLine
 10
70.60787257030671
 20
16.38826198291338
 30
0.0
 11
30.30166064443966
 21
16.38826198291356
 31
0.0
  0
LINE
  5
93
330
1F
100
AcDbEntity
  8
0
  6
Continuous
 62
     7
370
    -3
100
AcDbLine
 10
30.30166064443966
 20
16.38826198291356
 30
0.0
 11
30.30166064443966
 21
16.38786892078758
 31
0.0
  0
LINE
  5
94
330
1F
100
AcDbEntity
  8
0
  6
Continuous
 62
     7
370
    -3
100
AcDbLine
 10
30.30126640899391
 20
16.38786892078758
 30
0.0
 11
30.30166064443966
 21
16.38786892078758
 31
0.0
  0
LINE
  5
95
330
1F
100
AcDbEntity
  8
0
  6
Continuous
 62
     7
370
    -3
100
AcDbLine
 10
30.30126640899391
 20
16.38786892078758
 30
0.0
 11
30.30126640899385
 21
3.55065612403192
 31
0.0
  0
LINE
  5
96
330
1F
100
AcDbEntity
  8
0
  6
Continuous
 62
     7
370
    -3
100
AcDbLine
 10
31.20476605168888
 20
3.550656124031916
 30
0.0
 11
30.30126640899385
 21
3.55065612403192
 31
0.0
  0
LINE
  5
97
330
1F
100
AcDbEntity
  8
0
  6
Continuous
 62
     7
370
    -3
100
AcDbLine
 10
31.20476605168888
 20
3.550656124031916
 30
0.0
 11
31.20476605168888
 21
3.550262475246047
 31
0.0
  0
LINE
  5
98
330
1F
100
AcDbEntity
  8
0
  6
Continuous
 62
     7
370
    -3
100
AcDbLine
 10
31.20476605168888
 20
3.550262475246047
 30
0.0
 11
69.70476833637715
 21
3.550262475245876
 31
0.0
  0
LINE
  5
9A
330
1F
100
AcDbEntity
  8
0
  6
Continuous
 62
     7
370
    -3
100
AcDbLine
 10
70.60826680575241
 20
3.550656124031741
 30
0.0
 11
69.70476833637715
 21
3.550656124031746
 31
0.0
  0
LINE
  5
A9
330
1F
100
AcDbEntity
  8
0
  6
Continuous
 62
     7
370
    -3
100
AcDbLine
 10
70.64226726630952
 20
3.550656124031741
 30
0.0
 11
70.60826680575241
 21
3.550656124031741
 31
0.0
  0
LINE
  5
AA
330
1F
100
AcDbEntity
  8
0
  6
Continuous
 62
     7
370
    -3
100
AcDbLine
 10
70.64226726630952
 20
3.550656124031741
 30
0.0
 11
70.64226726630953
 21
4.707657078257987
 31
0.0
  0
LINE
  5
AB
330
1F
100
AcDbEntity
  8
0
  6
Continuous
 62
     7
370
    -3
100
AcDbLine
 10
70.64226726630957
 20
15.0409869867491
 30
0.0
 11
70.64226726630957
 21
16.3878689207874
 31
0.0
  0
LINE
  5
AC
330
1F
100
AcDbEntity
  8
0
  6
Continuous
 62
     7
370
    -3
100
AcDbLine
 10
70.60826680575246
 20
16.3878689207874
 30
0.0
 11
70.64226726630957
 21
16.3878689207874
 31
0.0
  0
LINE
  5
AD
330
1F
100
AcDbEntity
  8
0
  6
Continuous
 62
     7
370
    -3
100
AcDbLine
 10
70.60787257030671
 20
16.42226244347049
 30
0.0
 11
63.26726723627259
 21
16.42226244347052
 31
0.0
  0
LINE
  5
AE
330
1F
100
AcDbEntity
  8
0
  6
Continuous
 62
     7
370
    -3
100
AcDbLine
 10
32.26726695092122
 20
16.42226244347066
 30
0.0
 11
30.30166064443967
 21
16.42226244347067
 31
0.0
  0
LINE
  5
AF
330
1F
100
AcDbEntity
  8
0
  6
Continuous
 62
     7
370
    -3
100
AcDbLine
 10
30.30166064443966
 20
16.38826198291356
 30
0.0
 11
30.30166064443967
 21
16.42226244347067
 31
0.0
  0
LINE
  5
B0
330
1F
100
AcDbEntity
  8
0
  6
Continuous
 62
     7
370
    -3
100
AcDbLine
 10
70.60787257030671
 20
16.42226244347049
 30
0.0
 11
70.60787257030671
 21
16.38826198291338
 31
0.0
  0
LINE
  5
B1
330
1F
100
AcDbEntity
  8
0
  6
Continuous
 62
     7
370
    -3
100
AcDbLine
 10
30.2672659484368
 20
16.38786892078758
 30
0.0
 11
30.30126640899391
 21
16.38786892078758
 31
0.0
  0
LINE
  5
B2
330
1F
100
AcDbEntity
  8
0
  6
Continuous
 62
     7
370
    -3
100
AcDbLine
 10
30.2672659484368
 20
16.38786892078758
 30
0.0
 11
30.26726594843674
 21
3.55065612403192
 31
0.0
  0
LINE
  5
B3
330
1F
100
AcDbEntity
  8
0
  6
Continuous
 62
     7
370
    -3
100
AcDbLine
 10
30.30126640899385
 20
3.55065612403192
 30
0.0
 11
30.26726594843674
 21
3.55065612403192
 31
0.0
  0
LINE
  5
B4
330
1F
100
AcDbEntity
  8
0
  6
Continuous
 62
     7
370
    -3
100
AcDbLine
 10
31.20476605168888
 20
3.516262454683853
 30
0.0
 11
69.70476833637715
 21
3.516262454683682
 31
0.0
  0
LINE
  5
B6
330
1F
100
AcDbEntity
  8
0
  6
Continuous
 62
     7
370
    -3
100
AcDbLine
 10
31.20476605168888
 20
3.550262475246047
 30
0.0
 11
31.20476605168888
 21
3.516262454683853
 31
0.0
  0
LINE
  5
B8
330
1F
100
AcDbEntity
  8
0
  6
Continuous
 62
     7
370
    -3
100
AcDbLine
 10
31.20476605168888
 20
3.516262454683854
 30
0.0
 11
31.20476605168888
 21
3.457656891700319
 31
0.0
  0
LINE
  5
BB
330
1F
100
AcDbEntity
  8
0
  6
Continuous
 62
     7
370
    -3
100
AcDbLine
 10
30.29536695714482
 20
3.423263222352258
 30
0.0
 11
30.29536695714475
 21
-13.75794987214127
 31
0.0
  0
LINE
  5
BC
330
1F
100
AcDbEntity
  8
0
  6
Continuous
 62
     7
370
    -3
100
AcDbLine
 10
30.29536695714475
 20
-13.75794987214127
 30
0.0
 11
30.29576119259051
 21
-13.75794987214127
 31
0.0
  0
LINE
  5
BD
330
1F
100
AcDbEntity
  8
0
  6
Continuous
 62
     7
370
    -3
100
AcDbLine
 10
30.29576119259051
 20
-13.75834293426725
 30
0.0
 11
30.29576119259051
 21
-13.75794987214127
 31
0.0
  0
LINE
  5
BE
330
1F
100
AcDbEntity
  8
0
  6
Continuous
 62
     7
370
    -3
100
AcDbLine
 10
30.29576119259051
 20
-13.75834293426725
 30
0.0
 11
70.60197311845755
 21
-13.75834293426743
 31
0.0
  0
LINE
  5
C1
330
1F
100
AcDbEntity
  8
0
  6
Continuous
 62
     7
370
    -3
100
AcDbLine
 10
70.6023673539033
 20
-13.75794987214145
 30
0.0
 11
70.60236735390337
 21
3.423263222352079
 31
0.0
  0
LINE
  5
C2
330
1F
100
AcDbEntity
  8
0
  6
Continuous
 62
     7
370
    -3
100
AcDbLine
 10
69.69886771120835
 20
3.423263222352083
 30
0.0
 11
70.60236735390337
 21
3.423263222352079
 31
0.0
  0
LINE
  5
C4
330
1F
100
AcDbEntity
  8
0
  6
Continuous
 62
     7
370
    -3
100
AcDbLine
 10
69.69886771120835
 20
3.423656871137952
 30
0.0
 11
31.19886659983985
 21
3.423656871138123
 31
0.0
  0
LINE
  5
C5
330
1F
100
AcDbEntity
  8
0
  6
Continuous
 62
     7
370
    -3
100
AcDbLine
 10
31.19886659983985
 20
3.423656871138123
 30
0.0
 11
31.19886659983985
 21
3.423263222352254
 31
0.0
  0
LINE
  5
C6
330
1F
100
AcDbEntity
  8
0
  6
Continuous
 62
     7
370
    -3
100
AcDbLine
 10
30.29536695714482
 20
3.423263222352258
 30
0.0
 11
31.19886659983985
 21
3.423263222352254
 31
0.0
  0
LINE
  5
D1
330
1F
100
AcDbEntity
  8
0
  6
Continuous
 62
     7
370
    -3
100
AcDbLine
 10
69.69886771120835
 20
3.457656891700147
 30
0.0
 11
31.19886659983985
 21
3.457656891700317
 31
0.0
  0
LINE
  5
D2
330
1F
100
AcDbEntity
  8
0
  6
Continuous
 62
     7
370
    -3
100
AcDbLine
 10
31.19886659983985
 20
3.457656891700317
 30
0.0
 11
31.19886659983985
 21
3.423656871138123
 31
0.0
  0
LINE
  5
D4
330
1F
100
AcDbEntity
  8
0
  6
Continuous
 62
     7
370
    -3
100
AcDbLine
 10
30.26136649658771
 20
3.423263222352258
 30
0.0
 11
30.26136649658764
 21
-13.75794987214127
 31
0.0
  0
LINE
  5
D5
330
1F
100
AcDbEntity
  8
0
  6
Continuous
 62
     7
370
    -3
100
AcDbLine
 10
30.29536695714475
 20
-13.75794987214127
 30
0.0
 11
30.26136649658764
 21
-13.75794987214127
 31
0.0
  0
LINE
  5
D6
330
1F
100
AcDbEntity
  8
0
  6
Continuous
 62
     7
370
    -3
100
AcDbLine
 10
30.26136649658771
 20
3.423263222352258
 30
0.0
 11
30.29536695714482
 21
3.423263222352258
 31
0.0
  0
LINE
  5
D7
330
1F
100
AcDbEntity
  8
0
  6
Continuous
 62
     7
370
    -3
100
AcDbLine
 10
30.29576119259051
 20
-13.79234339482437
 30
0.0
 11
30.29576119259051
 21
-13.75834293426725
 31
0.0
  0
LINE
  5
D8
330
1F
100
AcDbEntity
  8
0
  6
Continuous
 62
     7
370
    -3
100
AcDbLine
 10
30.29576119259051
 20
-13.79234339482437
 30
0.0
 11
70.60197311845755
 21
-13.79234339482454
 31
0.0
  0
LINE
  5
DB
330
1F
100
AcDbEntity
  8
0
  6
Continuous
 62
     7
370
    -3
100
AcDbLine
 10
70.63636781446041
 20
-13.75794987214145
 30
0.0
 11
70.63636781446049
 21
3.423263222352079
 31
0.0
  0
LINE
  5
DC
330
1F
100
AcDbEntity
  8
0
  6
Continuous
 62
     7
370
    -3
100
AcDbLine
 10
70.60236735390337
 20
3.423263222352079
 30
0.0
 11
70.63636781446049
 21
3.423263222352079
 31
0.0
  0
LINE
  5
E2
330
1F
100
AcDbEntity
  8
0
  6
Continuous
 62
     7
370
    -3
100
AcDbLine
 10
70.50346588308828
 20
3.550656124031742
 30
0.0
 11
70.50346588308828
 21
3.42326322235208
 31
0.0
  0
LINE
  5
E3
330
1F
100
AcDbEntity
  8
0
  6
Continuous
 62
     7
370
    -3
100
AcDbLine
 10
30.39226674441688
 20
3.423263222352257
 30
0.0
 11
30.39226674441688
 21
3.55065612403192
 31
0.0
  0
LINE
  5
E4
330
1F
100
AcDbEntity
  8
0
  6
Continuous
 62
     7
370
    -3
100
AcDbLine
 10
31.14226682701859
 20
3.550656124031917
 30
0.0
 11
31.14226682701859
 21
3.423263222352254
 31
0.0
  0
LINE
  5
F5
330
1F
100
AcDbEntity
  8
0
  6
Continuous
 62
     7
370
    -3
100
AcDbLine
 10
70.4634674118207
 20
3.550656124031742
 30
0.0
 11
70.4634674118207
 21
3.42326322235208
 31
0.0
  0
LINE
  5
F6
330
1F
100
AcDbEntity
  8
0
  6
Continuous
 62
     7
370
    -3
100
AcDbLine
 10
30.43226521568445
 20
3.423263222352257
 30
0.0
 11
30.43226521568445
 21
3.55065612403192
 31
0.0
  0
INSERT
  5
100
330
1F
100
AcDbEntity
  8
FORMAT
370
    -3
100
AcDbBlockReference
  2
SW_NOTE_0
 10
50.81867666856448
 20
-3.90572153170288
 30
0.0
  0
LINE
  5
117
330
1F
100
AcDbEntity
  8
0
370
    18
100
AcDbLine
 10
18.21275190827717
 20
-1.270243112386772
 30
0.0
 11
24.44870428824154
 21
4.105624928298183
 31
0.0
  0
LINE
  5
118
330
1F
100
AcDbEntity
  8
0
370
    18
100
AcDbLine
 10
18.21275190827717
 20
9.481492968983147
 30
0.0
 11
24.44870428824154
 21
4.105624928298183
 31
0.0
  0
LINE
  5
119
330
1F
100
AcDbEntity
  8
0
370
    18
100
AcDbLine
 10
18.21275190827717
 20
6.275664984585986
 30
0.0
 11
18.21275190827717
 21
9.481492968983147
 31
0.0
  0
MTEXT
  5
11A
330
1F
100
AcDbEntity
  8
0
  6
Continuous
 62
     0
370
    18
100
AcDbMText
 10
10.28061619012103
 20
5.475757064828584
 30
0.0
 40
2.381249999999999
 41
0.0
 71
     1
 72
     1
  1
{\fVerdana|b0|i0|c0|p34;AIRFLOW}
  7
SLDTEXTSTYLE0
 73
     1
 44
1.0
  0
LINE
  5
11B
330
1F
100
AcDbEntity
  8
0
370
    18
100
AcDbLine
 10
9.319941048479023
 20
1.935584872010387
 30
0.0
 11
18.21275190827717
 21
1.935584872010387
 31
0.0
  0
LINE
  5
11C
330
1F
100
AcDbEntity
  8
0
370
    18
100
AcDbLine
 10
9.319941048479023
 20
6.275664984585986
 30
0.0
 11
18.21275190827717
 21
6.275664984585986
 31
0.0
  0
LINE
  5
11D
330
1F
100
AcDbEntity
  8
0
370
    18
100
AcDbLine
 10
9.319941048479023
 20
1.935584872010387
 30
0.0
 11
9.319941048479023
 21
6.275664984585986
 31
0.0
  0
LINE
  5
11E
330
1F
100
AcDbEntity
  8
0
370
    18
100
AcDbLine
 10
18.21275190827717
 20
1.935584872010387
 30
0.0
 11
18.21275190827717
 21
-1.270243112386772
 31
0.0
  0
ENDSEC
  0
SECTION
  2
OBJECTS
  0
DICTIONARY
  5
C
330
0
100
AcDbDictionary
281
     1
  3
ACAD_GROUP
350
D
  3
ACAD_LAYOUT
350
1A
  3
ACAD_MLINESTYLE
350
17
  3
ACAD_PLOTSETTINGS
350
19
  3
ACAD_PLOTSTYLENAME
350
E
  0
DICTIONARY
  5
D
102
{ACAD_REACTORS
330
C
102
}
330
C
100
AcDbDictionary
281
     1
  0
DICTIONARY
  5
1A
102
{ACAD_REACTORS
330
C
102
}
330
C
100
AcDbDictionary
281
     1
  3
Layout1
350
1E
  3
Layout2
350
26
  3
Model
350
22
  0
DICTIONARY
  5
17
102
{ACAD_REACTORS
330
C
102
}
330
C
100
AcDbDictionary
281
     1
  3
Standard
350
18
  0
DICTIONARY
  5
19
102
{ACAD_REACTORS
330
C
102
}
330
C
100
AcDbDictionary
281
     1
  0
ACDBDICTIONARYWDFLT
  5
E
102
{ACAD_REACTORS
330
C
102
}
330
C
100
AcDbDictionary
281
     1
  3
Normal
350
F
100
AcDbDictionaryWithDefault
340
F
  0
LAYOUT
  5
1E
102
{ACAD_REACTORS
330
1A
102
}
330
1A
100
AcDbPlotSettings
  1

  2
none_device
  4

  6

 40
0.0
 41
0.0
 42
0.0
 43
0.0
 44
0.0
 45
0.0
 46
0.0
 47
0.0
 48
0.0
 49
0.0
140
0.0
141
0.0
142
1.0
143
1.0
 70
   688
 72
     0
 73
     0
 74
     5
  7

 75
    16
147
1.0
148
0.0
149
0.0
100
AcDbLayout
  1
Layout1
 70
     1
 71
     1
 10
0.0
 20
0.0
 11
12.0
 21
9.0
 12
0.0
 22
0.0
 32
0.0
 14
1.000000000000000E+20
 24
1.000000000000000E+20
 34
1.000000000000000E+20
 15
-1.000000000000000E+20
 25
-1.000000000000000E+20
 35
-1.000000000000000E+20
146
0.0
 13
0.0
 23
0.0
 33
0.0
 16
1.0
 26
0.0
 36
0.0
 17
0.0
 27
1.0
 37
0.0
 76
     0
330
1B
  0
LAYOUT
  5
26
102
{ACAD_REACTORS
330
1A
102
}
330
1A
100
AcDbPlotSettings
  1

  2
none_device
  4

  6

 40
0.0
 41
0.0
 42
0.0
 43
0.0
 44
0.0
 45
0.0
 46
0.0
 47
0.0
 48
0.0
 49
0.0
140
0.0
141
0.0
142
1.0
143
1.0
 70
   688
 72
     0
 73
     0
 74
     5
  7

 75
    16
147
1.0
148
0.0
149
0.0
100
AcDbLayout
  1
Layout2
 70
     1
 71
     2
 10
0.0
 20
0.0
 11
0.0
 21
0.0
 12
0.0
 22
0.0
 32
0.0
 14
0.0
 24
0.0
 34
0.0
 15
0.0
 25
0.0
 35
0.0
146
0.0
 13
0.0
 23
0.0
 33
0.0
 16
1.0
 26
0.0
 36
0.0
 17
0.0
 27
1.0
 37
0.0
 76
     0
330
23
  0
LAYOUT
  5
22
102
{ACAD_REACTORS
330
1A
102
}
330
1A
100
AcDbPlotSettings
  1

  2
none_device
  4

  6

 40
0.0
 41
0.0
 42
0.0
 43
0.0
 44
0.0
 45
0.0
 46
0.0
 47
0.0
 48
0.0
 49
0.0
140
0.0
141
0.0
142
1.0
143
1.0
 70
  1712
 72
     0
 73
     0
 74
     0
  7

 75
     0
147
1.0
148
0.0
149
0.0
100
AcDbLayout
  1
Model
 70
     1
 71
     0
 10
0.0
 20
0.0
 11
0.0
 21
0.0
 12
0.0
 22
0.0
 32
0.0
 14
0.0
 24
0.0
 34
0.0
 15
11.0
 25
8.5
 35
0.0
146
0.0
 13
0.0
 23
0.0
 33
0.0
 16
1.0
 26
0.0
 36
0.0
 17
0.0
 27
1.0
 37
0.0
 76
     0
330
1F
  0
MLINESTYLE
  5
18
102
{ACAD_REACTORS
330
17
102
}
330
17
100
AcDbMlineStyle
  2
STANDARD
 70
     0
  3

 62
   256
 51
90.0
 52
90.0
 71
     2
 49
0.5
 62
   256
  6
BYLAYER
 49
-0.5
 62
   256
  6
BYLAYER
  0
ACDBPLACEHOLDER
  5
F
102
{ACAD_REACTORS
330
E
102
}
330
E
  0
ENDSEC
  0
EOF
